GAME OVER – ”SIEGE AT MONSTEROPOLIS”

(Lead guitar)

 

Transcribed by Wire

(Copyright Capcom and Wire)

 

 

Guitar is down-tuned 2 steps (E --> D)

 

 

h = hammer-on

p = pull-off

t = tap

~ = vibrato

/ = slide

/full = full bend

pm. = palm muting

art.harm. = artificial harmonic

trem. = tremolo

 

 

Intro, lead guitar 1:

||-----------------------------------------7------7---------

||-----8--8--8--8--8--8--------8--8--8--------10------------

||-.---------------------9--9-----------9-------------------

||-.--------------------------------------------------------

||----------------------------------------------------------

||----------------------------------------------------------

 

 

 

-----------------------7------------------------------------

--8--8--8--8--8--8--------10--8--10---10--10--10--10--10--10

--------------------9---------------------------------------

------------------------------------------------------------

------------------------------------------------------------

------------------------------------------------------------

 

 

 

-----7------------------7--10--9--------7--10--9---10--12-||

--7-----10--8--7------------------------------------------||

------------------9--9------------9--9------------------.-||

--------------------------------------------------------.-||

----------------------------------------------------------||

----------------------------------------------------------||

 

 

 

 

 

 

 

 

Intro lead guitar 2 (play simultaneously with lead guitar 2 above):

||----------------------------------------------------------

||-----------------------------------------8--7--8----------

||-.--9--9--9--9--9--9---------9--9--9----------------------

||-.--------------------9--9------------9-------------------

||----------------------------------------------------------

||----------------------------------------------------------

 

 

 

------------------------------------------------------------

-----------------------8--7-----7---7--7--7--7--7--7--------

--9--9--9--9--9--9-----------9------------------------7-----

--------------------9---------------------------------------

------------------------------------------------------------

------------------------------------------------------------

 

 

 

--------------------7--10--9--------7--10--9---14--15-----||

--8--7----------------------------------------------------||

--------9--7--9--9------------9--9----------------------.-||

--------------------------------------------------------.-||

----------------------------------------------------------||

----------------------------------------------------------||

 

 

 

After chorus 1, lead guitar 1 plays intro melody again, while lead guitar 2 plays the following:

--7-----10--8--7--8--7------10--8--7--8-------------7-------

----10------------------10---------------8--8--10------7----

------------------------------------------------------------

------------------------------------------------------------

------------------------------------------------------------

------------------------------------------------------------

 

 

 

--/--12--12--10--12--15---19--17--15------------------------

--------------------------------------19--17—-17--15--17----

------------------------------------------------------------

------------------------------------------------------------

------------------------------------------------------------

------------------------------------------------------------

 

 

 

 

 

 

 

--15--15--15--17--15-------------------19--17--15-----------

----------------------19---19--17--15--------------19-------

------------------------------------------------------------

------------------------------------------------------------

------------------------------------------------------------

------------------------------------------------------------

 

 

 

------15----------------------------------------------------

--19------19--17~-------------------------------------------

------------------------------------------------------------

------------------------------------------------------------

------------------------------------------------------------

------------------------------------------------------------

 

 

 

After chorus 2, lead guitar 1:

-----------------/-12--10--8--------------------------------

--8--8--8--7--8----------------12--10--10--12--12--12-~-----

------------------------------------------------------------

------------------------------------------------------------

------------------------------------------------------------

------------------------------------------------------------

 

 

 

----------------------------------------/--12--10--8--7-----

--10--12--12--12-~--10---8--8--8--7--8------------------10--

------------------------------------------------------------

------------------------------------------------------------

------------------------------------------------------------

------------------------------------------------------------

 

 

 

------------------------------------------------------------

--7--8--7---------------------------------------------------

-----------9-~----------------------------------------------

------------------------------------------------------------

------------------------------------------------------------

------------------------------------------------------------

 

 

 

 

 

 

After chorus 2, lead guitar 2 (play simultaneously with lead guitar 1):

-----------------/-8--7-------------------------------------

-------------------------10--8--7--7--8--8--8-~--7--8--8--8~

--9--9--9--7--9---------------------------------------------

------------------------------------------------------------

------------------------------------------------------------

------------------------------------------------------------

 

 

 

--------------------/-8--7----------------------------------

--7-------------------------10--8--7------------------------

-----9--9--9--7--9--------------------7--9--7---------------

-----------------------------------------------9-~----------

------------------------------------------------------------

------------------------------------------------------------

 

 

 

 

Solo:

------------15-------------------------15--17--15-----------

--/-17--15------19--17--15--17-~---15--------------19-------

------------------------------------------------------------

------------------------------------------------------------

------------------------------------------------------------

------------------------------------------------------------

 

 

           

------h------p------p---------------------------------------

--15-----19-----17-----15-------p------h------h------p------

----------------------------17-----16-----17-----19-----17--

------------------------------------------------------------

------------------------------------------------------------

------------------------------------------------------------

 

 

 

------------------------------------------------------------

--p------------h------h------p------p-------------h------h--

----16--/--14-----16-----17-----16-----14--/--12-----14-----

------------------------------------------------------------

------------------------------------------------------------

------------------------------------------------------------

 

 

 

 

 

 

----------h------p---------------------h------h------p------

------13-----15-----13--/--12------12-----13-----15-----13--

--16---------------------------14---------------------------

------------------------------------------------------------

------------------------------------------------------------

------------------------------------------------------------

 

 

 

---h--------------p-------p-------h-------------------------

------15--/--17-------15-----13------17-~-\-----------------

-------------------------------------------------x-\--------

-------------------------------------------------x-\--------

------------------------------------------------------------

------------------------------------------------------------

 

 

 

------t-------p------h------p------p------h------h-------p--

--20-----17------15-----17-----15-----12-----15-----17------

------------------------------------------------------------

------------------------------------------------------------

------------------------------------------------------------

------------------------------------------------------------

 

 

 

------h-------p------p-------------t------p------h------p---

--15-----17------15-----12-----20-----17-----15-----17------

------------------------------------------------------------

------------------------------------------------------------

------------------------------------------------------------

------------------------------------------------------------

 

 

 

------p------h------h------p------h------p------p-----------

--15-----12-----15-----17-----15-----17-----15-----12-------

------------------------------------------------------------

------------------------------------------------------------

------------------------------------------------------------

------------------------------------------------------------

 

 

 

------t------p------h--------p--------p--------h------p-----

--17-----15-----12------15-------12-------10------12-----10-

------------------------------------------------------------

------------------------------------------------------------

------------------------------------------------------------

------------------------------------------------------------

 

 

 

--------h------p--------------------------------------------

--/--8-----10-----8---/--5--------------full----------------

-----------------------------------14-/--------12-----------

---------------------------------------------------16---14--

------------------------------------------------------------

------------------------------------------------------------

 

 

                                                                                                                          

-----------p-------p----------------------------------------

-------17------15------13--/--12------p---------------------

----------------------------------14-----12-----------------

--12--------------------------------------------------------

------------------------------------------------------------

------------------------------------------------------------

      full    p                              h    h    p

--14-/-----\-----12--------p------h-------12---14---15------

-----------------------15-----13-----15---------------------

------------------------------------------------------------

------------------------------------------------------------

------------------------------------------------------------

------------------------------------------------------------

 

 

             p              h    h          h    h

--14---12--------12---14---15----14---15---17---------------

------------15----------------------------------------------

------------------------------------------------------------

------------------------------------------------------------

------------------------------------------------------------

------------------------------------------------------------

 

 

             h          h         h    h

--15---17---19---17---19---22---/--24-----------------------

------------------------------------------------------------

------------------------------------------------------------

------------------------------------------------------------

------------------------------------------------------------

------------------------------------------------------------

 

 

 

 

 

 

 

 

Password music lead guitar 1:

||----------------------------------------------------------

||--12--12--10--10---10--10--10--8-~---8--8--8--10---12--12-

||-.--------------------------------------------------------

||-.--------------------------------------------------------

||----------------------------------------------------------

||----------------------------------------------------------

 

 

 

---------------------------------------------||-------------

--10--10---10--10--10--9-~--9--9--9--10------||-------------

-------------------------------------------.-||-------------

-------------------------------------------.-||-------------

---------------------------------------------||-------------

---------------------------------------------||-------------

 

 

 

||---------------------------------------------------------

||-12--12--12--12--12--10--10--10--10--10---10--10--10--8-~

||-.-------------------------------------------------------

||-.-------------------------------------------------------

||---------------------------------------------------------

||---------------------------------------------------------

 

 

 

------------------------------------------------------------

--8--8--8--10---12--12--12--12--12--10--10--10--10--10------

------------------------------------------------------------

------------------------------------------------------------

------------------------------------------------------------

------------------------------------------------------------

 

 

1..............................      2......................

----------------------------------||------------------------

--10--10--10--9-~--9--9--9--10----||--7--8--7---------------

--------------------------------.-||------------9-~-\-------

--------------------------------.-||------------------------

----------------------------------||------------------------

----------------------------------||------------------------

 

 

 

 

 

 

 

 

Password music lead guitar 2 (simultaneously with lead guitar 1):

Play 4 times

||--------------------------------------------------------||

||--------------------------------------------------------||

||-.--12--12--11--11---11--11--11---9-~--9--9--9--11----.-||

||-.----------------------------------------------------.-||

||--------------------------------------------------------||

||--------------------------------------------------------||

 

 

 

Play 3 times

||----------------------------------------------------------

||----------------------------------------------------------

||-.--12--12--12--12--12--11--11--11--11--11---11--11--11---

||-.--------------------------------------------------------

||----------------------------------------------------------

||----------------------------------------------------------

 

 

 

 

 

 

------------------------||----------------------------------

------------------------||--12--12--12--12--12--11--11--11--

--9-~--9--9--9--11----.-||----------------------------------

----------------------.-||----------------------------------

------------------------||----------------------------------

------------------------||----------------------------------

 

 

 

------------------------------------------------------------

--11--11----------------------------------------------------

------------------------------------------------------------

------------------------------------------------------------

------------------------------------------------------------

------------------------------------------------------------

 

 

 

 

After chorus 3, lead guitar 1:

-----------------/-12--10--8--------------------------------

--8--8--8--7--8----------------12--10--10--12--12--12-~-----

------------------------------------------------------------

------------------------------------------------------------

------------------------------------------------------------

------------------------------------------------------------

 

 

 

----------------------------------------/--12--10--8--7-----

--10--12--12--12-~--10---8--8--8--7--8------------------10--

------------------------------------------------------------

------------------------------------------------------------

------------------------------------------------------------

------------------------------------------------------------

 

 

                                     h        h       h   h    p   p

----h---h-----5---7---8---7---8---10---8---7------7-~-------

--7---8---10----------------------------------10-------10---

------------------------------------------------------------

------------------------------------------------------------

------------------------------------------------------------

------------------------------------------------------------

 

 

 

-----------------/-12--10--8--------------------------------

--8--8--8--7--8----------------12--10--10--12--12--12-~-----

------------------------------------------------------------

------------------------------------------------------------

------------------------------------------------------------

------------------------------------------------------------

 

 

 

----------------------------------------/--12--10--8--7-----

--10--12--12--12-~--10---8--8--8--7--8------------------10--

------------------------------------------------------------

------------------------------------------------------------

------------------------------------------------------------

------------------------------------------------------------

 

 

 

----h---p---------------------------------------------------

--7---8---7-------------------------------------------------

-------------9-~--------------------------------------------

------------------------------------------------------------

------------------------------------------------------------

------------------------------------------------------------

 

 

 

 

 

 

 

 

After chorus 3, lead guitar 2 (play simultaneously with lead guitar 1):

-----------------/-8--7-------------------------------------

-------------------------10--8--7--7--8--8--8-~--7--8--8--8~

--9--9--9--7--9---------------------------------------------

------------------------------------------------------------

------------------------------------------------------------

------------------------------------------------------------

 

 

 

--------------------/-8--7----------------------------------

--7-------------------------10--8--7-------h---h------------

-----9--9--9--7--9-----------------------7---9---11---------

------------------------------------------------------------

------------------------------------------------------------

------------------------------------------------------------

 

 

 

-----h----h--------h----h----p------p-----------------------

--7----8----10---8---10---12----10-----8--/--7--7-~---------

------------------------------------------------------------

------------------------------------------------------------

------------------------------------------------------------

------------------------------------------------------------

 

 

 

-----------------/-8--7---------------10--8--7--------------

-------------------------10--8--7--7------------10--8-------

--9--9--9--7--9---------------------------------------------

------------------------------------------------------------

------------------------------------------------------------

------------------------------------------------------------

 

 

 

 

-------h---p-----7----------------------/-8--7--------------

--7--7---8---7-------7--------------------------10--8--7----

-------------------------9--9--9--7--9----------------------

------------------------------------------------------------

------------------------------------------------------------

------------------------------------------------------------

 

 

 

 

 

 

--10--8--7------8--7----------------------------------------

------------10--------10--8---------------------------------

-----------------------------9-~----------------------------

------------------------------------------------------------

------------------------------------------------------------

------------------------------------------------------------

 

 

Ending, lead guitar 1:

----------12------------------p----p---------p----p---------

--------------12---12--13--15---13---12---15---13---12------

---/-9-~----------------------------------------------------

------------------------------------------------------------

------------------------------------------------------------

------------------------------------------------------------

 

 

 

-----p----p-------------------------------------------------

--15---13---12---------------------p----p------12--13-------

----------------14--12--11--12--14---12---11----------------

------------------------------------------------------------

------------------------------------------------------------

------------------------------------------------------------

 

 

 

-------full-------------full-~-~-~--\-----------------------

--13-/------\--12--15-/-------------------------------------

------------------------------------------------------------

------------------------------------------------------------

------------------------------------------------------------

------------------------------------------------------------