GAME OVER – ”SIEGE AT MONSTEROPOLIS”

(Rhythm guitar)

 

Transcribed by Wire

(Copyright Capcom and Wire)

 

 

Guitar is down-tuned 2 steps (E --> D)

 

 

h = hammer-on

p = pull-off

t = tap

~ = vibrato

/ = slide

/full = full bend

pm. = palm muting

art.harm. = artificial harmonic

trem. = tremolo

 

 

 

Rhythm figure, verse (same during the beginning with solo guitars)

Play 4 times

||----------------------------------------------------------

||----------------------------------------------------------

||-.--------------------------------------------------------

||-.-9----------------------------------------------------9-

||---7---7--7--7---7--7--7---7--7--7---7--7--7---7--7--7--7-

||----------------------------------------------------------

 

 

 

------------------------------------------------------------

------------------------------------------------------------

------------------------------------------------------------

--9--7--9-------------------------------------9---9---9---9-

--7--7--7----10-------------------------------10--12--10--12

-------------8--8--8--8---8--8--8---8--8--8---8---8---8---8-

 

 

 

------------------------------------------------------------

------------------------------------------------------------

------------------------------------------------------------

--7--------------------------------9--7--5------9-----------

--5--5--5--5---5--5--5---5--5--5---5--5--5--9---7---7--7--7-

------------------------------------------------------------

 

 

 

 

 

 

 

                                             First 3 times

                                          1..........       

---------------------------------------------------------||

---------------------------------------------------------||

-------------------------------------------------------.-||

------------------------------------------------9---7--.-||

--7--7--7---7--7--7---7--7--7---7--7--7---7--7--7---5----||

---------------------------------------------------------||

 

 

 

4th time

2.............       Rhythm figure, chorus

------------------------------------------------------------

------------------------------------------------------------

------------------------------------------------------------

---------------------9--10----------------------10--7-------

--7--7--7--7---------7--8---8--8--8---8--8--8---------------

------------------------------------------------------------

 

 

 

 

------------------------------------------------------------

------------------------------------------------------------

-----------9-------------------------------------------7----

-----7-----------7------9----------------------9------------

--8-----8-----8-----8---7--7--7--7---7--7--7------10--------

------------------------------------------------------------

 

 

 

 

------------------------------------------------------------

------------------------------------------------------------

------------7-----------------------------------------------

------------------9--10----------------------10--7----------

--7--10--7--------7--8---8--8--8---8--8--8------------------

------------------------------------------------------------

 

 

 

 

------------------------------------------------------------

------------------------------------------------------------

-----------9------------------------------------------------

-----7-----------7------7-----------------------------------

--8-----8-----8-----8---5--5--5--5---5--5--5---5--5--5------

------------------------------------------------------------

 

 

 

 

 

 

                      Rhythm figure, instrumental part after chorus

------------------------------------------------------------

------------------------------------------------------------

------------------------------------------------------------

--8---8--8—-8--8-------9------------------------------------

--6---6--6--6--6-------7---7--7--7---7--7--7---7--7--7------

------------------------------------------------------------

 

 

 

------------------------------------------------------------

------------------------------------------------------------

------------------------------------------------------------

----------—-------------------------------5-----------------

--7--7--7---7--7--7---7--7--7---7--7--7---3---3--3--3-------

------------------------------------------------------------

 

 

 

------------------------------------------------------------

------------------------------------------------------------

------------------------------------------------------------

----------—-------------------------------------------------

---3--3--3---3--3--3---3--3--3---3--3--3---3--3--3---3--3--3

------------------------------------------------------------

 

 

 

------------------------------------------------------------

------------------------------------------------------------

------------------------------------------------------------

--7-------—-------------------------------------------------

--5---5--5--5---5--5--5---5--5--5---5--5--5---5--5--5-------

------------------------------------------------------------

 

 

 

------------------------------------------------------------

------------------------------------------------------------

------------------------------------------------------------

----------—-----------9-------------------------------------

--5--5--5---5--5--5---7---7--7--7---7--7--7---7--7--7-------

------------------------------------------------------------

 

 

 

------------------------------------------------------------

------------------------------------------------------------

------------------------------------------------------------

----------—------------------9---7--------------------------

--7--7--7---7--7--7---7--7---7---5--------------------------

------------------------------------------------------------

 

 

 

Verse 2: Rhythm figure, verse, 2 times.

Chorus 2: Rhythm figure, chorus.

 

 

 

Rhythm figure, instrumental part after chorus 2

------------------------------------------------------------

------------------------------------------------------------

--5-----5-----5--------7-----7-----7-------9-----11-----12--

--5-----5-—-----5------7-----7-------7-----9-----11-----12--

--3--3--3--3------3----5--5--5--5------5---7--7--9---9--10--

------------------------------------------------------------

 

 

 

------------------------------------------------------------

------------------------------------------------------------

--12---9-----11-----12--12----5-----5-----5-------7-----7---

--12---9--—--11-----12--12----5-----5-------5-----7-----7---

--10---7--7--9---9--10--10----3--3--3--3------3---5--5--5--5

------------------------------------------------------------

 

 

 

------------------------------------------------------------

------------------------------------------------------------

--7-------9----7---9---7---9---7--8--9----------------------

----7-----9----7---9---7---9---7--8--9----------------------

------5---7----5---7---5---7---5--6--7----------------------

------------------------------------------------------------

 

 

 

Guitar solo: Same rhythm figure as instrumental part after chorus 1.

 

 

Password music:

Play 4 times

||----------------------------------------------------------

||----------------------------------------------------------

||.-5------------------------4-----------------------5------

||.-5-------—----------------4---------2-------------5------

||--3--3--3--3--3--3--3--3---2--2--2---2-------------3--3--3

||-------------------------------------0--0--0--0-----------

 

 

                                  1..............................

------------------------------------------------------------

------------------------------------------------------------

--5--------5------4-----------------------------------------

--5-------—5------4---------2-------------------------------

--3--3--3--3--3---2--2--2---2-------------------------------

----------------------------0--0--0--0----------------------

 

 

Last time:

2.................................

------------------------------------------------------------

------------------------------------------------------------

------------------------------------------------------------

--2-------—-------------------------------------------------

--2---------------------------------------------------------

--0--0--0--0--0--0--0--0--0--0--0---------------------------

 

 

 

 

Verse 3: Rhythm figure, verse, 2 times.

Chorus 3: Rhythm figure, chorus.

 

 

 

Rhythm figure, instrumental part after chorus 2

------------------------------------------------------------

------------------------------------------------------------

--5-----5-----5--------7-----7-----7-------9-----11-----12--

--5-----5-—-----5------7-----7-------7-----9-----11-----12--

--3--3--3--3------3----5--5--5--5------5---7--7--9---9--10--

------------------------------------------------------------

 

 

 

------------------------------------------------------------

------------------------------------------------------------

--12---9-----11-----12--12----5-----5-----5-------7-----7---

--12---9--—--11-----12--12----5-----5-------5-----7-----7---

--10---7--7--9---9--10--10----3--3--3--3------3---5--5--5--5

------------------------------------------------------------

 

 

 

------------------------------------------------------------

------------------------------------------------------------

--7-------4-------------------------------------------------

----7-----4-------------------------------------------------

------5---2-------------------------------------------------

------------------------------------------------------------

 

 

 

------------------------------------------------------------

------------------------------------------------------------

--5-----5-----5--------7-----7-----7-------9-----11-----12--

--5-----5-—-----5------7-----7-------7-----9-----11-----12--

--3--3--3--3------3----5--5--5--5------5---7--7--9---9--10--

------------------------------------------------------------

 

 

 

------------------------------------------------------------

------------------------------------------------------------

--12---9-----11-----12--12----5-----5-----5-------7-----7---

--12---9--—--11-----12--12----5-----5-------5-----7-----7---

--10---7--7--9---9--10--10----3--3--3--3------3---5--5--5--5

------------------------------------------------------------

 

 

 

------------------------------------------------------------

------------------------------------------------------------

--7-------9---7--9--7--9--7--8--9---------------------------

----7-----9---7--9--7--9--7--8--9---------------------------

------5---7---5--7--5--7--5--6--7---------------------------

------------------------------------------------------------