GAME OVER – ”TRANSYLVANIAN TEMPTATION”

GAME OVER – ”TRANSYLVANIAN TEMPTATION”

Castlevania level 1, 6 & 3

Rhythm Guitar

 

 

Transcribed by Wire

(Copyright Nintendo and Wire)

www.nintendometal.com

 

Tune down guitar 2 steps if you want it to sound like our recording.

Pay attention to the right hand upstrokes (V) as they’re important to the songs's character.

 

 

h = hammer-on

p = pull-off

t = tap

~ = vibrato

/ = slide

/full = full bend

pm. = palm muting

art.harm. = artificial harmonic

trem. = tremolo

V = upstroke

 

 

Acoustic guitar

Intro

||------------------------------------------------------------------------

||------------------------------------------------------------------------

||-.-----9----9-----7------------------------------------7----------------

||-.-----9----9-----7----11---------------7--9-----9--7-------------------

||-------7----7-----7----7------7--9--10--------7-------------------------

||------------------------------------------------------------------------

              V     V

 

-----------------------------------------------------------||            

-----------------------------------------------------------||

---9----9----7-------------------------------------------.-||            

---9----9----7----11---------------7--9-----9--7---------.-||

---7----7----7----7------7--9--10--------7--------5--------||           

-----------------------------------------------------------||

        V    V                                Play 4 times

 

 

 

Electric guitar

Intro and verse

||------------------------------------------------------------------------

||------------------------------------------------------------------------

||-.-----9----9-----7------------------------------------7----------------

||-.-----9----9-----7----11---------------7--9-----9--7-------------------

||-------7----7-----7----7------7--9--10--------7-------------------------

||------------------------------------------------------------------------

              V     V           p.m........     ........

 

-----------------------------------------------------------||            

-----------------------------------------------------------||

---9----9----7-------------------------------------------.-||            

---9----9----7----11---------------7--9-----9--7---------.-||

---7----7----7----7------7--9--10--------7--------5--------||           

-----------------------------------------------------------||

        V    V           p.m.........    ........

                                             Play 8 times

 

 

 

 

Bridge (“Your mastery, my delight...”)

---------------h---p----------12--12--11--11--10----12--12--11--11--10----

-------12---11--12--11--------9---9---8---8---7-----9---9---8---8---7-----

---9---9----9-----------12------------------------------------------------

---9----------------------------------------------------------------------

--------------------------------------------------------------------------

--------------------------------------------------------------------------

            let ring...           V       V             V       V

 

 

 

---------------h---p----------12--12--11--11--10----12--12--11--11--10----

-------12---11--12--11--------9---9---8---8---7-----9---9---8---8---7-----

---9---9----9-----------12------------------------------------------------

---9----------------------------------------------------------------------

--------------------------------------------------------------------------

--------------------------------------------------------------------------

            let ring...           V       V             V       V

 

 

--------------------------------------------------------------------------

--------------------------------------------------------------------------

---8---------------9---------------8---------------9----------------------

---8---------------9---------------8---------------9----------------------

---6--6--6--6--6---7--7--7--7--7---6--6--6--6--6---7--7--7--7--7----------

--------------------------------------------------------------------------

      p.m........     p.m.......      p.m.......      p.m........

 

--------------------------------------------------------------------------

--------------------------------------------------------------------------

---8---------------9---------------11---------------16--------------------

---8---------------9---------------11---------------16--------------------

---6--6--6--6--6---7--7--7--7--7---9---9--9--9--9---14--14--14--14--14----

--------------------------------------------------------------------------

      p.m........     p.m........     p.m.........      p.m............

 

Chorus

--------------------------------------------------------------------------

--------------------------------------------------------------------------

---9--9--9--9---7---9----\------------------------------------------------

---9--9--9--9---7---9---\------5--5--5--5----7--7--7--7-------------------

---7--7--7--7---5---7--\-------3--3--3--3----5--5--5--5-------------------

--------------------------------------------------------------------------

         V                              V             V

 

 

--------------------------------------------------------------------------

--------------------------------------------------------------------------

---9--9--9--9---7---9----\------------------------------------------------

---9--9--9--9---7---9---\------5--5--5--5----7--7--4-/--7-----------------

---7--7--7--7---5---7--\-------3--3--3--3----5--5--2-/--5-----------------

--------------------------------------------------------------------------

         V                              V             

 

 

Verse rhythm figure – play 8 times

Repeat bridge

 

 

Chorus 2

||----------------------------------------------------------------------||

||----------------------------------------------------------------------||

||-.------9--9--9--9---7---9----\-------------------------------------.-||

||-.------9--9--9--9---7---9---\------5--5--5--5----7--7--7--7--------.-||

||--------7--7--7--7---5---7--\-------3--3--3--3----5--5--5--5----------||

||----------------------------------------------------------------------||

                V                              V             V

                                                            Play 3 times

 

--------------------------------------------------------------------------

--------------------------------------------------------------------------

---9--9--9--9---7---9----\------------------------------------------------

---9--9--9--9---7---9---\------5--5--5--5----7--7--4-/--7-----------------

---7--7--7--7---5---7--\-------3--3--3--3----5--5--2-/--5-----------------

--------------------------------------------------------------------------

 

 

Middle section

||-----------------------------------------------------------------------||

||-----------------------------------------------------------------------||

||-.-9--9--9--9--9--9----9--9--9--9--9--9----5--5--5-------7--7--7-----.-||

||-.-9--9--9--9--9--9----9--9--9--9--9--9----5--5----5-----7--7----7---.-||

||---7--7--7--7--7--7----7--7--7--7--7--7----3--3------3---5--5------5---||

||-----------------------------------------------------------------------||

                    V           V            V                V            V           V

                                                                                                                                                Play 3 times

 

--------------------------------------------------------------------------

--------------------------------------------------------------------------

---9--9--9--9--9--9----9--9--9--9--9--9------5--5--5--5--5---7--7--7--7--7

---9--9--9--9--9--9----9--9--9--9--9--9------5--5--5--5--5---7--7--7--7--7

---7--7--7--7--7--7----7--7--7--7--7--7------3--3--3--3--3---5--5--5--5--5

--------------------------------------------------------------------------

               V            V           V                V            V            V                   V            V                     V     V     V

 

 

||----------------------------------------------------------------------||

||----------------------------------------------------------------------||

||-.-9--9--9--9--9---9--9--9--9--9-----5--5--5--5--5----7--7--7--7--7-.-||

||-.-9--9--9--9--9---9--9--9--9--9-----5--5--5--5--5----7--7--7--7--7-.-||

||---7--7--7--7--7---7--7--7--7--7-----3--3--3--3--3----5--5--5--5--5---||

||----------------------------------------------------------------------||

               V     V         V     V           V     V          V     V

 

Level 3

||------------------------------------------------------------------------

||------------------------------------------------------------------------

||-.-----9-----9-----9-----9-----9-----9-----9-----9--------5-----5-----5-

||-.-----9-----9-----9-----9-----9-----9-----9-----9--------5-----5-----5-

||----7--7--7--7--7--7--7--7--7--7--7--7--7--7--7--7-----3--3--3--3--3--3-

||------------------------------------------------------------------------

         V     V     V     V     V     V     V     V        V     V     V

 

 

------------------------------------||                                    

------------------------------------||                                   

-----5-----5-----5-----7-----8----.-||                                   

-----5-----5-----5-----7-----8----.-||                                   

--3--3--3--3--3--3--5--5--6--6------||                                   

------------------------------------||                                   

     V     V     V     V     V

 

 

||------------------------------------------------------------------------

||------------------------------------------------------------------------

||-.--9--------------------------------------------------5----------------

||-.--9--------------------------------------------------5----------------

||----7--7—77--7-77--7-77--7-77--7-77--7-77--7-77--77----3--3-33--3-33----

||------------------------------------------------------------------------

                     p.m..........................................      p.m........

 

 

                                                                1................................................

------------------------------------------------------------------------||

------------------------------------------------------------------------||

---------------------------7-------8----------------------------------.-||

---------------------------7-------8----------------------------------.-||

---3-33--3-33--3-33--33----5--55---6--66--------------------------------||

------------------------------------------------------------------------||

      p.m..................      p.m..   p.m..

                                                                                                                                            Play 7 times

 

2.............................................................

------------------------------|

------------------------------|

---7-------9------------------|

---7-------9------------------|

---5--55---7--77--------------|

------------------------------|

      p.m..   p.m..

 

 

||------------------------------------------------------------------------

||------------------------------------------------------------------------

||-.---7-------7------------7-------7-------------------------------------

||-.---7-------7------------7-------7-------------------------------------

||-----5--555--5--5--7--9---5--555--5--5--7--9----------------------------

||------------------------------------------------------------------------

          p.m..   p.m.....     p.m..   p.m.....

 

 

------------------------------------------------------------------------||

------------------------------------------------------------------------||

---9-------9--------------9-------9-----------------------------------.-||

---9-------9--------------9-------9-----------------------------------.-||

---7--777--7--7--9--10----7--777--7--7--9--10---------------------------||

------------------------------------------------------------------------||

     p.m..   p.m.......      p.m..   p.m......

 

 

--------------------------------------------------------------------------

--------------------------------------------------------------------------

--------9--------------7---------------5----------4--/----\---------------

--------9--------------7---------------5----------4--/----\---------------

--------7--------------5---------------3----------2--/----\---------------

--------------------------------------------------------------------------

        I see you...   I hear you...

 

 

--------------------------------------------------------------------------

--------------------------------------------------------------------------

--------9--------------7---------------5----------4-------4---------------

--------9--------------7---------------5----------4-------4---------------

--------7--------------5---------------3----------2-------2---------------

--------------------------------------------------------------------------

 

 

Repeat last three rhythm figures

 

 

Ending

||-----------------------------------------||                            

||-----------------------------------------||                            

||-.-----4---7---9-------9---7---5-------.-||                            

||-.-----4---7---9-------9---7---5-------.-||                            

||-------2---5---7-------7---5---3---------||                             

||-----------------------------------------||                            

                             Play 4 times

 

 

                    trem...................................

--------------------------------------------------------------------------

--------------------------------------------------------------------------

--------------------------------------------------------------------------

----9---7---5---4---2-----------------------------------------2-----------

----9---7---5---4---2-----------------------------------------2-----------

----7---5---3---2---0-----------------------------------------0-----------

 

 

Repeat acoustic section