Solo guitar

Punch out melody (before 1st verse)

|-------------------------------------------------------------

|-------------------------------------------------------------

|----6--7--7--6-------h---------h-------7--6-----6--7--7--6—7-

|-9--------------9--8---9--7--8---9--7--------9---------------

|-------------------------------------------------------------

|-------------------------------------------------------------

 

 

--------------------------------------|

-----h-----------h--------------------|

--10---11--9--10---11--9--7--6--------|

--------------------------------------|

--------------------------------------|

--------------------------------------|

 

 

Melody during chorus                                p

|-----------7--10--9------7--9--10--9--10--9---------7--7-----

|--------7------------10~---------------------8~--10----------

|-----7-------------------------------------------------------

|--9----------------------------------------------------------

|-------------------------------------------------------------

|-------------------------------------------------------------

 

 

--7--10--9------------|

------------7~--------|

----------------------|

----------------------|

----------------------|

----------------------|

 

 

Tapping solo

      t    p        t    p        t    p        t   p

|--14---10---7---14---10---7---14---10---7---14---10---7-------

|--------------------------------------------------------------

|--------------------------------------------------------------

|--------------------------------------------------------------

|--------------------------------------------------------------

|--------------------------------------------------------------

 

 

     t   p          t   p        t   p        t     p

--15---10---7---14---10---7---15---10---7---14---10---7--------

---------------------------------------------------------------

---------------------------------------------------------------

---------------------------------------------------------------

---------------------------------------------------------------

---------------------------------------------------------------

 

 

 

     t   p        t   p        t   p        t   p

--12---9---5---12---9---5---12---9---5---12---9---5------------

---------------------------------------------------------------

---------------------------------------------------------------

---------------------------------------------------------------

---------------------------------------------------------------

---------------------------------------------------------------

 

 

     t   p        t   p        t   p       t   p

--14---9---5---15---9---5---14---9---5---12---9---5------------

---------------------------------------------------------------

---------------------------------------------------------------

---------------------------------------------------------------

---------------------------------------------------------------

---------------------------------------------------------------

 

 

     t   p        t   p       t    p        t   p

--10---7---3---10---7---3---10---7---3---10---7---3------------

---------------------------------------------------------------

---------------------------------------------------------------

---------------------------------------------------------------

---------------------------------------------------------------

---------------------------------------------------------------

 

 

     t   p        t   p        t   p       t    p

--12---7---3---10---7---3---12---7---3---10---7---3------------

---------------------------------------------------------------

---------------------------------------------------------------

---------------------------------------------------------------

---------------------------------------------------------------

---------------------------------------------------------------

 

 

     t   p        t   p        t   p       t    p

--12---9---5---12---9---5---12---9---5---12---9---5------------

---------------------------------------------------------------

---------------------------------------------------------------

---------------------------------------------------------------

---------------------------------------------------------------

---------------------------------------------------------------

 

 

--/-12--------------------|

--------15--14--12~-------|

--------------------------|

--------------------------|

--------------------------|

--------------------------|

 

 

 

 

Knock-down melody

|--------------------------------------------------------------

|--------------------------8---------8-------------------------

|--11----------11-------------9---------9-------11-------------

|------12--9-------12--9---------9---------9--------12--9------

|--------------------------------------------------------------

|--------------------------------------------------------------

 

                                       

                                       (Two guitars here)

---------------------------------------------------------------

---------------------------------------------------------------

--11-----------9-----------9------------11----------11---------

-----12--9-------11----------11---------9---12--9---9----12--9-

---------------------12----------12----------9--10--------9-10-

---------------------------------------------------------------

 

 

---------------------------------------------------------------

--8----------8-------------------------------------------------

--9---9------9---9--------11------------11---------------------

------9--9-------9--9------9---12--9-----9---12--9-------------

---------10---------10----------9--10---------9--10------------

---------------------------------------------------------------

 

 

---------------------------------|

---------------------------------|

--9-----------9------------------|

--7---11------7---11-------------|

-------7--12-------7--12---------|

-----------9-----------9---------|

 

 

Solo

|---------------------------------------------------------full-

|-----------------------7--------------------------7--8-8/---\-

|-----------------7--9--------------------6--7--6--------------

|--9--9--9--9--9-----------7--7--7--7--7-----------------------

|--------------------------------------------------------------

|--------------------------------------------------------------

 

 

                   full   full

------------------8--/----8--/---7-----------------------------

--7----------------------------------10-----full---------------

-----9--7---------------------------------9-/---\--7--9~-------

-----------7~--------------------------------------------------

---------------------------------------------------------------

---------------------------------------------------------------

 

 

 

                                       h    p   h   p   h

-------------------------------------7---10---7---9---7--------

-------h---p---h---p----------7~-------------------------------

-----6---7---6---7---6--7--9-----------------------------------

--9------------------------------------------------------------

---------------------------------------------------------------

---------------------------------------------------------------

 

 

     p   h   p   h    p   h   p   h    p   h   p

--10---7---9---7---10---7---9---7---10---7---9---7-------------

---------------------------------------------------------------

---------------------------------------------------------------

---------------------------------------------------------------

---------------------------------------------------------------

---------------------------------------------------------------

 

 

     p   h    p   h    p   h    p   h    p   h    p   h    p   

--12---9---10---9---12---9---10---9---12---9---10---9---12---9-

---------------------------------------------------------------

---------------------------------------------------------------

---------------------------------------------------------------

---------------------------------------------------------------

---------------------------------------------------------------

 

 

     p           full                   trem.................

--10---9-----12-/-----12-/---\------10---9--10--12--10--9--7---

-------------10-/-----10-/-------------------------------------

---------------------------------------------------------------

---------------------------------------------------------------

---------------------------------------------------------------

---------------------------------------------------------------

 

 

 

--10--9--7------9--7---------7------------------------------7~-

------------10--------10--8-----10--8--7-------7--8--10--8-----

------------------------------------------9~-------------------

---------------------------------------------------------------

---------------------------------------------------------------

---------------------------------------------------------------

 

 

 

--x-\----------------------------------------------------------

---------15-0-0-0--14-0-0-0--12-0--14-0-0-0--15-0-0-0--17-0----

---------------------------------------------------------------

---------------------------------------------------------------

---------------------------------------------------------------

---------------------------------------------------------------

 

 

 

  art.harm.

     full   full

--14-/---14-/----\-----12--------------------------------------

------------------------------19-0-0-0--17-0-0-0--15-0---------

---------------------------------------------------------------

---------------------------------------------------------------

---------------------------------------------------------------

---------------------------------------------------------------

 

 

     t   p       t   p       t  p       t   p

--14--10--7---14--10--7---14--10--7---14--10--7----------------

---------------------------------------------------------------

---------------------------------------------------------------

---------------------------------------------------------------

---------------------------------------------------------------

---------------------------------------------------------------

 

 

     t   p      t   p       t   p       t   p

--14--10--7---14--10--7---14--10--7---14--10--7----------------

---------------------------------------------------------------

---------------------------------------------------------------

---------------------------------------------------------------

---------------------------------------------------------------

---------------------------------------------------------------

 

 

     t   p      t   p       t   p       t   p

--15--10--7---15--10--7---15--10--7---15--10--7----------------

---------------------------------------------------------------

---------------------------------------------------------------

---------------------------------------------------------------

---------------------------------------------------------------

---------------------------------------------------------------

 

 

     t   p      t   p        t  p       t   p

--15--10--7---15--10--7---15--10--7---15--10--7----------------

---------------------------------------------------------------

---------------------------------------------------------------

---------------------------------------------------------------

---------------------------------------------------------------

---------------------------------------------------------------

 

 

    h  p  h  p        h  p  h  p       h  p  h  p 

--14-15-14-15-14----12-14-12-14-12---10-12-10-12-10-----------

--------------------------------------------------------------

--------------------------------------------------------------

--------------------------------------------------------------

--------------------------------------------------------------

--------------------------------------------------------------

 

 

 

   h  p h  p  

--9-10-9-10-9----7-\-----------|

-------------------------------|

-------------------------------|

-------------------------------|

-------------------------------|

-------------------------------|

 

 

 

”No-more-continues” melody

Play 2X (2nd time with “No-more-continues” harmony)

|-------------------------------------------------------------

|----12--14-14-/-15--14--------------------------------12—14--

|--11---------------------14------------------------11--------

|-----------------------------14--14--17--16--14--------------

|-------------------------------------------------------------

|-------------------------------------------------------------

 

 

--------------------------------------------------------------

-14-/-15--14--15-/-17-----------12--14-14-/-15--14------------

---------------------14~----11---------------------14---------

------------------------------------------------------14--14--

--------------------------------------------------------------

--------------------------------------------------------------

 

 

------------------------------------------------------|

---------------15--17--19--17--14---------------------|

-----------------------------------14—16~-\-----------|

--17--16--14------------------------------------------|

------------------------------------------------------|

------------------------------------------------------|

 

 

 

”No-more-continues” harmony

|--------------------------------------------------------------

|--------------------------------------------------------------

|--------------------------------------------------------------

|--9--9--10--12--7----7-------9--9--10--12--14-----7-----------

|------------------9-----9-----------------------9------9------

|--------------------------------------------------------------

 

 

----------------------------------------------------------|

----------------------------------------------------------|

----------------------------------------------------------|

--9--9--10--12--7-----7------5-----5---7-----7--9~--------|

-------------------9-----9------7---------9---------------|

----------------------------------------------------------|

 

 

Melody played during last verse

|-------------------------------------------------------------

|----------------------h----------h---------------------------

|-----6--7--7--6-----6---7--6---6---7--6---7--6-----6--7--7---

|--9--------------9------------------------------9------------

|-------------------------------------------------------------

|-------------------------------------------------------------

 

 

----------------------------------------------------------|

-----------h------------h---------------------------------|

--6--7--10---11--9---10---11--9----11--9--11--9-----------|

----------------------------------------------------------|

----------------------------------------------------------|

----------------------------------------------------------|

 

 

 

Melody played instead of chorus after last verse

                                                    p

|-----------7--10--9------7--9--10--9--10--9------------------

|--------7------------10~---------------------8~--10----------

|-----7-------------------------------------------------------

|--9----------------------------------------------------------

|-------------------------------------------------------------

|-------------------------------------------------------------

 

 

                             h   h       h    h

-----------------h---h----10--12--14---12--14--15-------------

-----h---h----12--14--15--------------------------------------

--12--14--16--------------------------------------------------

--------------------------------------------------------------

--------------------------------------------------------------

--------------------------------------------------------------

 

 

    h  p  h  p  h  p  h  p  h  p  h  p  h  p  h  p

--14-15-14-15-14-15-14-15-14-15-14-15-14-15-14-15-14----------

--------------------------------------------------------------

--------------------------------------------------------------

--------------------------------------------------------------

--------------------------------------------------------------

--------------------------------------------------------------

 

 

 

--12--14--15--14-------|

-----------------------|

-----------------------|

-----------------------|

-----------------------|

-----------------------|

 

 

Knock-down melody again (a little different from first time)

||-------------------------------------------------------------

||--------------------------------8-----------8----------------

||.---11----------11--------------9---9-------9---9------------

||.----9---12--9---9----12--9---------9--9--------9--9---------

||----------9--10--------9--10-----------10----------10--------

||-------------------------------------------------------------

 

 

                              1…………………………………………………………

-------------------------------------------------------------||

-------------------------------------------------------------||

---11------------11-------------9------------9--------------.||

----9---12--9-----9---12--9-----7---11-------7---11---------.||

---------9--10---------9--10---------7--12--------7--12------||

-----------------------------------------9------------9------||

 

 

2………………………………………………………………………………

-------------------------------7----|

-------------------------------7----|

--6--7--9--7--6----------------7----|

-----------------9--7-----9---------|

-----------------------9------------|

------------------------------------|