GAME OVER – ”LITTLE MAC’S CONFESSION”

 

 

Transcribed by Wire

(Copyright Nintendo and Wire)

 

Tune down guitar 4 steps (B will become G) if you want it to sound like it does on our recording. Your guitar may not like it though, so be careful.

 

 

h = hammer-on

p = pull-off

t = tap

~ = vibrato

/ = slide

/full = full bend

pm. = palm muting

art.harm. = artificial harmonic

trem. = tremolo

 

 

 

Acoustic guitar 1

Intro

Second time, play together with acoustic guitar 2.

||------------------------------------------------------------

||------------------------------------------------------------

||-.----------7----------------------6--------6---------------

||-.-------9-----9---9------------7--------7-----7------------

||-----9-----------9----9-------7--------7--------------------

||--7----------------------5----------------------------------

 

 

--------------------------------------------------------------

--------------7-------------------------5--------5------------

-----------7-----7-------------------6--------6---------------

--------9-----------9-------------7--------7------------------

-----9-----------------9-------7------------------------------

--7--------------------------5--------------------------------

 

 

--------------------------------------------------------------

--------------7-------------------------5---------------------

-----------7-----7-------------------6-----6------------------

--------9-----------9-------------7----------7----------------

-----9-----------------9-------7---------------7--------------

--7-------------------------5---------------------------------

 

 

                           1…………………………………………………………………………………

------------------------------------------------------------||

----------------------------------------7-------------------||

-----------4-----------6-------------7-----7--------------.-||

--------5-----------7-------------9----------9------------.-||

-----5-----------7-------------9---------------9------------||

--3-----------5-------------7-------------------------------||

 

 

2……………………………………………………………………………

-----------------7------------|

-----------------7------------|

-----------7-----7------------|

--------9--------9------------|

-----9-----------9------------|

--7--------------7------------|

 

 

Acoustic guitar 2

Intro melody

|-------------------------------------------------------------

|----12--14-14-/-15--14--------------------------------12—14--

|--11---------------------14------------------------11--------

|-----------------------------14--14--17--16--14--------------

|-------------------------------------------------------------

|-------------------------------------------------------------

 

 

--------------------------------------------------------------

-14-/-15--14--15-/-17-----------12--14-14-/-15--14------------

---------------------14----11---------------------14---------

------------------------------------------------------14--14--

--------------------------------------------------------------

--------------------------------------------------------------

 

 

---------------------------------------------------|

---------------15--17--19--17--14------------------|

-----------------------------------14—16-----------|

--17--16--14---------------------------------------|

---------------------------------------------------|

---------------------------------------------------|

 

 

Distorted guitar                                                

|----------------------------------------------|

|----------------------------------------------|

|----------------------------------------------|

|---9---9--9-----7-----5---5--5----7----7--9---|

|---9---9--9-----7-----5---5--5----7----7--9---|

|---7---7--7-----5-----3---3--3----5----5--7---|

                

                                 

Rhythm figure for verses (First time play with Punch out melody, second time with 1st verse)                                                    

||------------------------------------------------------------

||------------------------------------------------------------

||.-----------------------------------------------------------

||.-----------------------------------------------------------

||--9---------9----------9-----9-----9----------------9-------

||--7--7-7-7--7--7-7-7---7--7--7--7--7---7-7-7-7-7-7--7--7----

        pm....     pm...     pm     pm     pm..........   pm   

        “Doc I know...”

 

 

--------------------------------------------------------------

--------------------------------------------------------------

--------------------------------------------------------------

--------------------------------------------------------------

--7----------7----------7-----7------------12--11---9---------

--5--5-5-5---5--5-5-5---5--5--5--5-5-5-5---10---9---7--7-7-7--

     pm...      pm...     pm     pm.....               pm....

     ”Cause you counted...”

 

 

--------------------------------------------------------------

--------------------------------------------------------------

--------------------------------------------------------------

--------------------------------------------------------------

--9----------9-----9-----9-------------------9----------------

--7--7-7-7---7--7--7--7--7------7-7-7-7-7-7--7--7-------------

    pm....     pm    pm        pm..........    pm

 

 

------------------------------------------------------------||

------------------------------------------------------------||

-----------------------------------------------------------.||

-----------------------------------------------------------.||

--4---------4----------4-----4--------4-----4--4--4--4------||

--2--2-2-2--2---2-2-2--2--2--2--2-2-2-2-----2--2--2--2------||

     pm.....    pm....   pm     pm....  

 

Chorus

|-------------------------------------------------------------

|-------------------------------------------------------------

|-------------------------------------------------------------

|--9----------9----------9-------9------9-------------9-------

|--9----------9----------9-------9------9-------------9-------

|--7--7--7----7---7--7---7---7---7---7--7---7--7--7---7--7----

     pm...        pm...      pm      pm     pm.......    pm 

      “What’s my Star...”

 

 

--------------------------------------------------------------

--------------------------------------------------------------

-------------------------------------------------7-----9------

--7----------7-----------7---------6------9------5--0--7------

--7----------7-----------7---------4--0---7--0----------------

--5---5--5---5----5--5---5---5--5-----------------------------

     pm...       pm...      pm...     pm    pm     pm

 

 

--------------------------------------------------------------

-----------------------------------------6--------------------

-----------------------------------------4--------------------

--5--------5---------5-----------4---7-------4--4--4--4--4----

--5--------5---------5-----------2---5-------4--4--4--4--4----

--3---3-3--3---3-3---3---3-3-3---------------2--2--2--2--2----

     pm...    pm...     pm.....

 

 

----------------------------------|

----------------------------------|

----------------------------------|

--4--4--4----4-4-4--4-4-2---4-----|

--4--4--4-----------------4-------|

--2--2--2-------------------------|

             “PUNCH OUT!!”

 

 

 

Rhythm figure for tapping solo

|-------------------------------------------------------------

|-------------------------------------------------------------

|-------------------------------------------------------------

|--9--------9--------9---------7--------7--------7------------

|--9--------9--------9---------7--------7--------7------------

|--7--7--7--7--7--7--7--7------5--5--5--5--5--5--5--5—--------

    pm....   pm...     pm        pm...    pm...    pm

 

 

--------------------------------------------------------------

--------------------------------------------------------------

--------------------------------------------------------------

--5--------5--------5--5---7-------7-------7--7---------------

--5--------5--------5--5---7-------7-------7--7---------------

--3--3--3--3--3--3--3--3---5--5-5--5--5-5--5--5---------------

    pm...    pm...           pm...   pm...

 

 

-------------------------------------------------------------|

-------------------------------------------------------------|

-------------------------------------------------------------|

--9-------9-------9-----9-----9-----------9------------------|

--9-------9-------9-----9-----9-----------9------------------|

--7--7-7--7--7-7--7--7--7--7--7--7--7--7--7--7---------------|

    pm...    pm..   pm     pm   pm......     pm

 

 

Verse 2 and chorus 2 – use same Rhythm figures as for verse 1 and chorus 1.

 

 

Rhythm figure for “Knock-down music”

|-------------------------------------------------------------

|-------------------------------------------------------------

|-------------------------------------------------------------

|--9------9--9--9------h-----------h---------h----------------

|--9------9--9--9----4---5-5-5---4---5-5---4---5-5------------

|--7------7--7--7----3-----3-3---3-----3---3-----3------------

                         pm...       pm..      pm..

                     |----------------------------|

                     (Hold lower note)

 

 

--------------------------------------------------------------

--------------------------------------------------------------

--------------------------------------------------------------

--pause instead of chord----9--9--9------7--------------------

----------------------------9--9--9------7--------------------

----------------------------7--7--7------5--------------------

 

 

--------------------------------------------------------------

--------------------------------------------------------------

--------------------------------------------------------------

--9-9-9-9-x-9-9-9-----h-----------h------------h--------------

--9-9-9-9-x-9-9-9---4---5-5-5---4---5-5-5----4---5-5----------

--7-7-7-7-x-7-7-7---3-----3-3---3-----3-3----3-----3----------

                         pm..        pm..         pm..

(Alternate picking.................................................

 

 

-------------------------------------------|

-------------------------------------------|

-------------------------------------------|

--9-9-9-9-x-9-9-9--7-7-7-7-7-7-7-7---------|

--9-9-9-9-x-9-9-9--7-7-7-7-7-7-7-7---------|

--7-7-7-7-x-7-7-7--5-5-5-5-5-5-5-5---------|

..........................................)

 

 

 

Rhythm figure for break and beginning of solo. Play 4 times

|-------------------------------------------------------------

|-------------------------------------------------------------

|-------------------------------------------------------------

|-5-----5------------------7-----7--------------------5-----5-

|-5-----5------------------7-----7----h--h--h--h-h----5-----5-

|-7-7-7-7--7-9-10-7-9-10---5-5-5-5--5--7--5--7--5—7---3-3-3-3-

   pm..   pm............     pm..                      pm...

 

 

---------------------------------------------|

---------------------------------------------|

---------------------------------------------|

-----------------------6--7--6---------------|

-----2--5--4--2--4--7--4--5--4--7------------|

--3-----------------5-----------5------------|

 

 

 

Rhythm figure for rest of solo and “No more continues music”. Play 4 times

|-------------------------------------------------------------

|-------------------------------------------------------------

|-------------------------------------------------------------

|--9-----9-----9-9---7-----7-----7-7---9-----9-----9-9--------

|--9-----9-----9-9---7-----7-----7-7---9-----9-----9-9--------

|--7-7-7-7-7-7-7-7---5-5-5-5-5-5-5-5---7-7-7-7-7-7-7-7--------

    pm..  pm..         pm..  pm..        pm..  pm..

 

 

--------------------------------------------------------------

--------------------------------------------------------------

--------------------------------------------------------------

--7-----7-----7-7---9-----9-----9-9---7-----7-----7-7---------

--7-----7-----7-7---9-----9-----9-9---7-----7-----7-7---------

--5-5-5-5-5-5-5-5---7-7-7-7-7-7-7-7---5-5-5-5-5-5-5-5---------

   pm..  pm..        pm..  pm..        pm..   pm..

 

------------------------------------------------------------|

------------------------------------------------------------|

------------------------------------------------------------|

--5-------7---------9---------------------------------------|

--5-5-5---7-7-7-7---9-9-9-9-9-9-9-9-9-----------------------|

--3-3-3---5-5-5-5---7-7-7-7-7-7-7-7-7-----------------------|

   pm..    pm....    pm...............